Melodia.Space
Главная 🎸 Аккорды AC/DC AC/DC – Have Drink On Me, аккорды

AC/DC – Have Drink On Me, аккорды

Intro:
Hold the note on the B string 8th fret (G)

Play this several times
E|----------|---------------------|
B|-------8v-|--------8------------|
G|--7/9-----|---7/9-----7p5-7p5---|
D|----------|-------------------7-|
A|----------|---------------------|
E|----------|---------------------|

Then go into this. Played several times.
E|------------------------------------|
B|5----x-7-x---------8----------------|
G|5-h6-x-7-x----7/9-----9/7p-5--7p5---|
D|----------------------------------5-|
A|------------------------------------|
E|------------------------------------|

After a few times add this at the end of the previous
part.
E|-------------------------------|
B|-5---x-7-x---------------------|
G|-5h6-x-7-x---------5---5--2----|
D|-------------------5---5--2--x-|
A|--------------0-0--3-0-3--0--x-|
E|-------------------------------|

I combined the bass and guitar part on this to hear 
the chord changes when playing by myself. 
(Note: mute the A string with your index finger
as it's fretting the 3rd fret on the second bar of this part.)
E|-----------------------------------|-----------------------------|
B|-----------------------------------|-----------------------------|
G|-----------------------------------|-----------------------------|
D|---5--4-5---------------5--4-5-5-5-|-5--4-5-----------5--4-5-5-5-|
A|---0--0-0--0-0-0-0-0-0--0--0-0-0-0-|-----------------------------|
E|-----------------------------------|-3--3-3-3-3-3-3---3--3-3-3-3-|

Add the last part of this after a few times.
E|---------------------------|---------|
B|---------------------------|---------|
G|---------------------------|---------|
D|5--4-5----------5--4-5-5-5-|----5--4-|
A|5--5-5-5-5-5-5--5--5-5-5-5-|----5--4-|
E|---------------------------|----3--2-|

The Chorus is sung over the second part of this.

AC/DC – Have Drink On Me, аккорды - На Гитаре AmDm..