Melodia.Space
Главная 🎸 Аккорды AC/DC AC/DC – Have A Drink On Me (btab), аккорды

AC/DC – Have A Drink On Me (btab), аккорды

G:-------------|
D:-------------|
A:--3--3---3---|
E:5------5---5-|

G:--------------------------|
D:--------------------------| X2
A:----------------3---3-----|
E:5-5-5-5-5-5-5-5---5---5---|

G:------------------------------------------------------|
D:----------------------------------------------------5-|
A:-------------5(16)---------------------5(16)--5-5-8---|
E:5(16)--3(16)-------5(16)--5(16)--3(16)----------------|

G:--------------------------|
D:--------------------------| X2
A:----------------3---3-----|
E:5-5-5-5-5-5-5-5---5---5---|

(from 1.26-1.34)
G:----------------|
D:----------------|
A:----------------|
E:5-5-5-5-5-5-5-5-|

G:------------------------------------------------------|
D:----------------------------------------------------5-|
A:-------------5(16)---------------------5(16)--5-5-8---|
E:5(16)--3(16)-------5(16)--5(16)--3(16)----------------|

G:--------------------------|
D:--------------------------| X2
A:----------------3---3-----|
E:5-5-5-5-5-5-5-5---5---5---|

G:-------------------------------------------------------|
D:----7-----7-----7---5-5--------7-----7-----7---5---5---|
A:7-7---7-7---7-7---7-----5--7-7---7-7---7-7---7---7---7-|
E:-------------------------------------------------------|

G:--------------------------------------------------|
D:----7-----7-----7-5-5-5-5-5-5-5-5-----------------|
A:7-7---7-7---7-7-------------------5-5-5-5-5-5-5-5-|
E:--------------------------------------------------|

G:-----------------------|
D:-----------------------|
A:-----------------------|
E:5--5-5-5--5-5-5--5-5-5-|

G:-------------|
D:------5------| X6
A:---5-----5---|
E:5------------|

Outro:
G:----------------------|
D:----------------------|
A:--5---5---5-----------|
E:5---5---5-----5-5---5-|

AC/DC – Have A Drink On Me (btab), аккорды - На Гитаре AmDm..