Melodia.Space
Главная 🎸 Аккорды AC/DC AC/DC – Hard As A Rock (btab), аккорды

AC/DC – Hard As A Rock (btab), аккорды

|----------------------------------|
|----------------------------------| x17
|-2-2-2-2-2-2-2-2--2-2-2-2-2-2-2-2-|
|----------------------------------|

This mite be wrong:
|---------------------------------------------|
|---------------------------------------------| x3
|-2-2-2-2-2-2-2-2p0---------------------7p0---|
|--------------------0----5------0------------|

|-------------------------------------------------------------------|
|-------------------------------------------------------------------| x2
|-2-2-2-2-------2-2-2-2-2-2-(2)-2-----------------2-2-2-2-2-2-2-2-2-|
|---------0-0-0-------------------0-0-0-0-0-0-0-0-------------------|

|---------------------------|
|---------------------------| x12
|-2--2--2--2--2--2--2--2----|
|---------------------------|

|---------------------------------------------------|
|---------------------------------------------------| x2
|-2--2--2--2--2--2--2-------------------------------|
|----------------------0---(0)--0--0--0--0--0--0--0-|

|-----------------------------------------------------|
|-----------------------------------------------------| x1
|-0------2-2-2-2---------------------0-0----2-2-2-2-2-|
|-----0-----------0---0-0-0-0-0-0-0-------0-----------|

|-----------------|
|-----------------| x4
|-2-2-2-2-2-2-2-2-|
|-----------------|

|---------------------------------------------------------------|
|---------------------------------------------------------------| x1
|-0--------2------------------0-------2-------------------------|
|-------0---------------------------0--------0------0-0-0-0-0-0-|

|------------------------------------------------|
|------------------------------------------------| x3
|--0--0-----2--2--2--2---------------------------|
|--------0---------------0---0--0--0--0--0--0--0-|

|-----------------------------------------------------------------------|
|-----------------------------------------------------------------------| x1
|-----------------------------------------------0--1--2-----2-----------|
|-0--0--0--0--0--0--0--0---0--0--0--0--0--0--0-----------------------0--|

|-------------------------|
|-------------------------| x8
|-2--2--2--2--2--2--2--2--|
|-------------------------|

|----------------------------------------------------------------------------|
|----------------------------------------------------------------------------|x1
|-2-2-2-2----------2---2--2--2--2--2--2--------------------2-2-2-2-2-2-2-2-2-|
|---------0--0--0------------------------0--0-0-0-0-0-0-0--------------------|

|----------------------------------------------------------------------------|
|----------------------------------------------------------------------------|x1
|-2-2-2-2-----------2---2--2--2--2--2--2-------------------2-2-2-2-2-2-2-0-1-|
|----------0--0--0------------------------0--0-0-0-0-0-0-0-------------------|

|---------------------------------------------------------------------------|
|---------------------------0-1-2-------------------------------------------|x1
|------------------------------------------------------------------2---2--2-|
|--0--0--0-0-0-0-0-0-0-0-0---------0-0-0-0-0-0-0-0--0-0-0-0-0-0-0----0------|

AC/DC – Hard As A Rock (btab), аккорды - На Гитаре AmDm..