Melodia.Space
Главная 🎸 Аккорды AC/DC AC/DC – Hard As A Rock, аккорды

AC/DC – Hard As A Rock, аккорды

Main Riff: 
e---2-4-5-4-2-0-2-4-2---4-0---4-2---
B---0-0-0-0-0-0-0-0-0---0-0---0-0---
G-----------------------------------
D-----------------------------------
A-----------------------------------
E-----------------------------------
 
B5 E5 B5 E5
 
B5 Bm7 B5 (alternate)
А rolling rock, electric shock
B5 Bm7 B5
It gives a licking that doesn`t stop
B5 Bm7 B5
She line `em up, push you round
B5 Bm7 B5
Smoking rings going round and round
 
Riff:
e---2-2-4-2-4-5-4-2-0-2-4-2---
B---0-0-0-0-0-0-0-0-0-0-0-0--- x3
G-----------------------------
D-----------------------------
A-----------------------------
E-----------------------------
 
B5 Bm7 B5
Her hot potatoes
B5 Bm7 B5 
Will elevate you
B5 Bm7 B5 
Her bad behaviour
B5 Bm7 B5            B5 A5 E5 B5
Will leave you standing proud
B5 Bm7 B5 
Hard as a rock
 
Chorus:
Main Riff or B5 E5 B5 E5
Hard as a rock
B5 E5 B5 E5
Harder then a rock
B5 E5 B5 E5 
Hard as a rock
B5 A5 E5 B5 A5 E5
Harder then a rock
 
B5 Bm7 B5
The lightning rod, strike it hot
B5 Bm7 B5
Going hit you like the rushmore rock
B5 Bm7 B5 
No nicotine and no pipe dreams
B5 Bm7 B5 
So low and dirty it`s darn right mean
 
New riff:
e---2-2-4-2-4-5-4-2-0-2-4-2---
B---0-0-0-0-0-0-0-0-0-0-0-0--- x3
G-----------------------------
D-----------------------------
A-----------------------------
E-----------------------------
 
B5 Bm7 B5
Hell elevator, I`ll see you later
B5 Bm7 B5 
No I ain`t gonna take it
B5 Bm7 B5    B5 A5 E5
I`m bustin` out
B5 Bm7 B5
Hard as a rock
 
Chorus:
Main Riff or B5 E5 B5 E5
Hard as a rock
B5 E5 B5 E5 
Harder then a rock
B5 E5 B5 E5
Hard as a rock
B5 A5 E5 B5 A5 E5
Harder then a rock

AC/DC – Hard As A Rock, аккорды - На Гитаре AmDm..