Melodia.Space
Главная 🎸 Аккорды AC/DC AC/DC – Hail Caesar, аккорды

AC/DC – Hail Caesar, аккорды

e---------------------------------------
b---------------------------------------
G---------------------------------------
D--5-2----5-2---5-2----5-7--------------
A--5-2----5-2---5-2----5-7----repeat 6x-
E--3-0----3-0---3-0----3-5--------------

e-------------------------------
b-------------------------------
G-------------------------------
D------------2-5-7-5-2----------
A-Then:------2-5-7-5-2-repeat4x-
E------------0-3-5-3-0----------

e-------------------------------
b-------------------------------
G-------------------------------
D--------7-10-12-10-7-----------
A-Then:--7-10-12-10-7- Repeat2x-
E--------5-8--10--8-5-----------

e--------------------------------------
b--------------------------------------
G--------------------------------------
D---------7-10-12-10-10-7-10-7--10--12-
A-Then:---7-10-12-10-10-7-10-7--10--12-
E--- -----5-8--10--8--8-5-8--5--8---10-

e-------------------------------
b-------------------------------
G-------------------------------
D---------2-5-7-5-2-------------
A-Then:---2-5-7-5-2----Repeat2x-
E---------0-3-5-3-0-------------

AC/DC – Hail Caesar, аккорды - На Гитаре AmDm..