Melodia.Space
Главная - 🎸 Аккорды - AC/DC - AC/DC – Down Payment Blues (btab), аккорды

AC/DC – Down Payment Blues (btab), аккорды

G|-------------------------------|
D|-------------------------------|
A|-------------------------------|
E|-0-0-0-0-0-0-0-0-0-0-0-0-0-0-0-|

G|-------------------------------|
D|-------------------------------|
A|-------------------------------|
E|-2-2-2-2-2-2-2-2-2-2-2-2-2-2-2-|

G|-----------------|-------------------|
D|-----------------|-------------------|
A|-----------------|-------------------|
E|-5-5-5-5-5-5-5-5-|-7-7-7-7-7-7-7-7-7-|

G|-----------------|-------------------|-------------|
D|-----------------|-------------------|-------------|
A|----5(5)---------|-----0(0)----------|----7-----7/-|
E|-5---------------|--0----------------|-7-----7-----|

AC/DC – Down Payment Blues (btab), аккорды - На Гитаре AmDm..