Melodia.Space
Search
Close this search box.
Главная🎸 АккордыAC/DCAC/DC – Baby Please Don’t Go, аккорды

AC/DC – Baby Please Don’t Go, аккорды

Intro:
E|-------------------------|------------------------|
B|-------------------------|------------------------|
G|-------------------------|------------------------|
D|-------------------------|------------------------|
A|-------------------------|------------------------|
E|--0--0--0--0----0--0--0--|--0--0--0--0----0--0--0-|
 
E|-------------------------|-------------------------|------------------------|
B|-------------------------|-------------------------|------------------------|
G|-------------------------|-------------------------|------------------------|
D|-------------------------|-------------------------|------------------------|
A|-------------------------|-------------------------|------------------------|
E|--0--0--0--0----0--0--0--|--0--0--0--0----0--0--0--|--0--0--0--0----0--0--0-|

Theme 1:
E|-------------------------|-------------------------|-------------------------|
B|-------------------------|-------------------------|------------------10/-12-|
G|-------------------------|-------------------------|-------------------------|
D|-------------------------|-------------------------|-------------------------|
A|-------------------------|-------------------------|-------------------------|
E|--0--0--0--0----0--0--0--|--0--0--0--0----0--0--0--|--0--0--0--0-------------|
(play this 3 times...................................)
E|----------------------------|----------------------|
B|--15------15----------------|---------------10/-12-|
G|--------------15r-14--12----|--9-------------------|
D|----------------------------|----------------------|
A|----------------------------|----------------------|
E|----------------------------|----------------------|

End theme 1 theme 2:
E|----------------------------|-------------------|------|
B|--15------15----------------|-------------------|--17~-|
G|--------------15r-14--12----|--9----------------|------|
D|----------------------------|-------------------|------|
A|----------------------------|-------------------|------|
E|----------------------------|-------------------|------|

E|----------------15--------------|--------------------|-----------------------|
B|----12h-15h-17------17--15p-12--|--------------------|------------12h-15h-17-|
G|--------------------------------|--15b---------------|-----------------------|
D|--------------------------------|--------------------|-----------------------|
A|--------------------------------|--------------------|-----------------------|
E|--------------------------------|--------------------|-----------------------|

E|--15--------------------------|---------------------------------|
B|------17--15h-17--------------|----------15---------------------|
G|----------------------14p-12--|--15/-16------16--14p-12---------|
D|------------------------------|--------------------------14--12-|
A|------------------------------|---------------------------------|
E|------------------------------|---------------------------------|

End theme 2
E|----------------------------------|---------------------------|
B|----------15----------------------|---------------------------|
G|--15/-16------16--14p-12----------|---------------------------|
D|--------------------------14p-12--|---------------------------|
A|----------------------------------|--14p-12-------------------|
E|----------------------------------|----------15--12----12--15-|

Verse:
E|------------------------|-----------------------|-----------------------|
B|------------------------|-----------------------|-----------------------|
G|------------------------|-----------------------|-----------------------|
D|------------------------|-----------------------|-----------------------|
A|------------------------|-----------------------|-----------------------|
E|--0----3----0--0--0--0--|--3----0--0----0--3----|--0----3----0--0--0--0-|

E|-----------------------|------------------------|--------------------|
B|-----------------------|------------------------|--------------------|
G|-----------------------|------------------------|--------------------|
D|-----------------------|------------------------|--------------------|
A|-----------------------|------------------------|--------------------|
E|--3----0--0----0--3----|--0----3----0--0--0--0--|--3----0--0----0--3-|

E|------------------------|-----------------------|-----------------------|
B|------------------------|-----------------------|-----------------------|
G|------------------------|-----------------------|-----------------------|
D|------------------------|-----------------------|-----------------------|
A|------------------------|-----------------------|-----------------------|
E|--0----3----0--0--0--0--|--3----0--0----0--3----|--0----3----0--0--0--0-|

E|-----------------------|------------------------|--------------------|
B|-----------------------|------------------------|--------------------|
G|-----------------------|------------------------|--------------------|
D|-----------------------|------------------------|--------------------|
A|-----------------------|------------------------|--------------------|
E|--3----0--0----0--3----|--0----3----0--0--0--0--|--3----0--0----0--3-|

love you so...
E|------------------------|-----------------------|----|
B|------------------------|-----------------------|----|
G|------------------------|-----------------------|--2-|
D|------------------------|-----------------------|--2-|
A|------------------------|-----------------------|--0-|
E|--0----3----0--0--0--0--|--3----0--0----0--3----|----|

baby please... (let ring)
E|---------------------|-------3-|
B|---------------------|-------5-|
G|---------------------|-------0-|
D|---------------------|---------|
A|----------2--0-------|---------|
E|----------------3----|--0------|

Verse:
E|------------------|------------------|-----------------------|
B|------------------|------------------|-----------------------|
G|------------------|------------------|-----------------------|
D|------------------|------------------|-----------------------|
A|------------------|------------------|-----------------------|
E|------------------|------------------|--0----3----0--0--0--0-|

E|-----------------------|------------------------|--------------------|
B|-----------------------|------------------------|--------------------|
G|-----------------------|------------------------|--------------------|
D|-----------------------|------------------------|--------------------|
A|-----------------------|------------------------|--------------------|
E|--3----0--0----0--3----|--0----3----0--0--0--0--|--3----0--0----0--3-|

E|------------------------|-----------------------|----|
B|------------------------|-----------------------|----|
G|------------------------|-----------------------|--2-|
D|------------------------|-----------------------|--2-|
A|------------------------|-----------------------|--0-|
E|--0----3----0--0--0--0--|--3----0--0----0--3----|----|

(let ring)
E|---------------------|-------3-|
B|---------------------|-------5-|
G|---------------------|-------0-|
D|---------------------|---------|
A|----------2--0-------|---------|
E|----------------3----|--0------|

Now play theme 2, then theme 1, followed by bridge to solo part:
from theme 1:
E|----------------------------|-------------------|----|
B|--15------15----------------|-------------------|----|
G|--------------15r-14--12----|--9----------------|----|
D|----------------------------|-------------------|--2-|
A|----------------------------|-------------------|--2-|
E|----------------------------|-------------------|--0-|

E|-------------------|-------------------|-------------------|----|
B|-------------------|-------------------|-------------------|----|
G|-------------------|-------------------|-------------------|----|
D|--------------2----|--3----------------|--------------3----|--4-|
A|--------------2----|--3----------------|--------------3----|--4-|
E|--------------0----|--1----------------|--------------1----|--2-|

E|-------------------|-------------------|-------------------|----|
B|-------------------|-------------------|-------------------|----|
G|-------------------|-------------------|-------------------|----|
D|--------------4----|--5----------------|--------------5----|--6-|
A|--------------4----|--5----------------|--------------5----|--6-|
E|--------------2----|--3----------------|--------------3----|--4-|

AC/DC – Baby Please Don’t Go, аккорды - На Гитаре AmDm..